  0
SECTION
  2
HEADER
  9
$ACADVER
  1
AC1014
  9
$HANDSEED
  5
FFFF
  9
$MEASUREMENT
 70
     1
  0
ENDSEC
  0
SECTION
  2
TABLES
  0
TABLE
  2
VPORT
  5
8
330
0
100
AcDbSymbolTable
 70
     4
  0
VPORT
  5
2E
330
8
100
AcDbSymbolTableRecord
100
AcDbViewportTableRecord
  2
*ACTIVE
 70
     0
 10
0.0
 20
0.0
 11
1.0
 21
1.0
 12
210.0
 22
148.5
 13
0.0
 23
0.0
 14
10.0
 24
10.0
 15
10.0
 25
10.0
 16
0.0
 26
0.0
 36
1.0
 17
0.0
 27
0.0
 37
0.0
 40
341.0
 41
1.24
 42
50.0
 43
0.0
 44
0.0
 50
0.0
 51
0.0
 71
     0
 72
   100
 73
     1
 74
     3
 75
     0
 76
     0
 77
     0
 78
     0
  0
ENDTAB
  0
TABLE
  2
LTYPE
  5
5
330
0
100
AcDbSymbolTable
 70
     1
  0
LTYPE
  5
14
330
5
100
AcDbSymbolTableRecord
100
AcDbLinetypeTableRecord
  2
BYBLOCK
 70
     0
  3

 72
    65
 73
     0
 40
0.0
  0
LTYPE
  5
15
330
5
100
AcDbSymbolTableRecord
100
AcDbLinetypeTableRecord
  2
BYLAYER
 70
     0
  3

 72
    65
 73
     0
 40
0.0
  0
LTYPE
  5
16
330
5
100
AcDbSymbolTableRecord
100
AcDbLinetypeTableRecord
  2
CONTINUOUS
 70
     0
  3
Solid line
 72
    65
 73
     0
 40
0.0
  0
ENDTAB
  0
TABLE
  2
LAYER
  5
2
100
AcDbSymbolTable
 70
2
  0
LAYER
  5
50
100
AcDbSymbolTableRecord
100
AcDbLayerTableRecord
  2
0
 70
0
  6
CONTINUOUS
  0
LAYER
  5
51
100
AcDbSymbolTableRecord
100
AcDbLayerTableRecord
  2
rbg
 70
0
  6
CONTINUOUS
  0
ENDTAB
  0
TABLE
  2
STYLE
  5
3
330
0
100
AcDbSymbolTable
 70
     1
  0
STYLE
  5
11
330
3
100
AcDbSymbolTableRecord
100
AcDbTextStyleTableRecord
  2
STANDARD
 70
     0
 40
0.0
 41
1.0
 50
0.0
 71
     0
 42
2.5
  3
txt
  4

  0
ENDTAB
  0
TABLE
  2
VIEW
  5
6
330
0
100
AcDbSymbolTable
 70
     0
  0
ENDTAB
  0
TABLE
  2
UCS
  5
7
330
0
100
AcDbSymbolTable
 70
     0
  0
ENDTAB
  0
TABLE
  2
APPID
  5
9
330
0
100
AcDbSymbolTable
 70
     2
  0
APPID
  5
12
330
9
100
AcDbSymbolTableRecord
100
AcDbRegAppTableRecord
  2
ACAD
 70
     0
  0
ENDTAB
  0
TABLE
  2
DIMSTYLE
  5
A
330
0
100
AcDbSymbolTable
 70
     1
  0
DIMSTYLE
105
27
330
A
100
AcDbSymbolTableRecord
100
AcDbDimStyleTableRecord
  2
ISO-25
 70
     0
  3

  4

  5

  6

  7

 40
1.0
 41
2.5
 42
0.625
 43
3.75
 44
1.25
 45
0.0
 46
0.0
 47
0.0
 48
0.0
140
2.5
141
2.5
142
0.0
143
0.03937007874016
144
1.0
145
0.0
146
1.0
147
0.625
 71
     0
 72
     0
 73
     0
 74
     0
 75
     0
 76
     0
 77
     1
 78
     8
170
     0
171
     3
172
     1
173
     0
174
     0
175
     0
176
     0
177
     0
178
     0
270
     2
271
     2
272
     2
273
     2
274
     3
340
11
275
     0
280
     0
281
     0
282
     0
283
     0
284
     8
285
     0
286
     0
287
     3
288
     0
  0
ENDTAB
  0
TABLE
  2
BLOCK_RECORD
  5
1
330
0
100
AcDbSymbolTable
 70
     1
  0
BLOCK_RECORD
  5
1F
330
1
100
AcDbSymbolTableRecord
100
AcDbBlockTableRecord
  2
*MODEL_SPACE
  0
BLOCK_RECORD
  5
1B
330
1
100
AcDbSymbolTableRecord
100
AcDbBlockTableRecord
  2
*PAPER_SPACE
  0
ENDTAB
  0
ENDSEC
  0
SECTION
  2
BLOCKS
  0
BLOCK
  5
20
330
1F
100
AcDbEntity
  8
0
100
AcDbBlockBegin
  2
*MODEL_SPACE
 70
     0
 10
0.0
 20
0.0
 30
0.0
  3
*MODEL_SPACE
  1

  0
ENDBLK
  5
21
330
1F
100
AcDbEntity
  8
0
100
AcDbBlockEnd
  0
BLOCK
  5
1C
330
1B
100
AcDbEntity
 67
     1
  8
0
100
AcDbBlockBegin
  2
*PAPER_SPACE
  1

  0
ENDBLK
  5
1D
330
1B
100
AcDbEntity
 67
     1
  8
0
100
AcDbBlockEnd
  0
ENDSEC
  0
SECTION
  2
ENTITIES
  0
LINE
  5
100
100
AcDbEntity
  8
rbg
 62
7
100
AcDbLine
 10
1.954190
 20
3.634171
 30
0.0
 11
1.954190
 21
1.529663
 31
0.0
  0
LINE
  5
101
100
AcDbEntity
  8
rbg
 62
7
100
AcDbLine
 10
1.954190
 20
1.529663
 30
0.0
 11
6.614192
 21
1.529663
 31
0.0
  0
LINE
  5
102
100
AcDbEntity
  8
rbg
 62
7
100
AcDbLine
 10
6.614192
 20
1.529663
 30
0.0
 11
6.614192
 21
3.634171
 31
0.0
  0
SPLINE
  5
103
100
AcDbEntity
  8
rbg
 62
7
100
AcDbSpline
 70
8
 71
3
 72
8
 73
4
 74
0
 40
0
 40
0
 40
0
 40
0
 40
1
 40
1
 40
1
 40
1
 10
4.284184
 20
9.346421
 30
0.0
 10
4.508225
 20
9.345213
 30
0.0
 10
4.812460
 20
9.233060
 30
0.0
 10
4.885474
 20
9.196102
 30
0.0
  0
SPLINE
  5
104
100
AcDbEntity
  8
rbg
 62
7
100
AcDbSpline
 70
8
 71
3
 72
8
 73
4
 74
0
 40
0
 40
0
 40
0
 40
0
 40
1
 40
1
 40
1
 40
1
 10
4.885474
 20
9.196102
 30
0.0
 10
5.333403
 20
8.969353
 30
0.0
 10
6.010804
 20
8.685048
 30
0.0
 10
6.012902
 20
7.241912
 30
0.0
  0
SPLINE
  5
105
100
AcDbEntity
  8
rbg
 62
7
100
AcDbSpline
 70
8
 71
3
 72
8
 73
4
 74
0
 40
0
 40
0
 40
0
 40
0
 40
1
 40
1
 40
1
 40
1
 10
6.012902
 20
7.241912
 30
0.0
 10
6.013527
 20
6.809677
 30
0.0
 10
5.973568
 20
6.643733
 30
0.0
 10
6.088054
 20
6.565456
 30
0.0
  0
SPLINE
  5
106
100
AcDbEntity
  8
rbg
 62
7
100
AcDbSpline
 70
8
 71
3
 72
8
 73
4
 74
0
 40
0
 40
0
 40
0
 40
0
 40
1
 40
1
 40
1
 40
1
 10
6.088054
 20
6.565456
 30
0.0
 10
6.208873
 20
6.482859
 30
0.0
 10
6.163651
 20
6.329873
 30
0.0
 10
6.163221
 20
6.189651
 30
0.0
  0
SPLINE
  5
107
100
AcDbEntity
  8
rbg
 62
7
100
AcDbSpline
 70
8
 71
3
 72
8
 73
4
 74
0
 40
0
 40
0
 40
0
 40
0
 40
1
 40
1
 40
1
 40
1
 10
6.163221
 20
6.189651
 30
0.0
 10
6.162290
 20
5.885694
 30
0.0
 10
6.162429
 20
5.886985
 30
0.0
 10
6.088054
 20
5.813847
 30
0.0
  0
SPLINE
  5
108
100
AcDbEntity
  8
rbg
 62
7
100
AcDbSpline
 70
8
 71
3
 72
8
 73
4
 74
0
 40
0
 40
0
 40
0
 40
0
 40
1
 40
1
 40
1
 40
1
 10
6.088054
 20
5.813847
 30
0.0
 10
6.012193
 20
5.739236
 30
0.0
 10
6.015624
 20
5.738944
 30
0.0
 10
6.012902
 20
5.588361
 30
0.0
  0
SPLINE
  5
109
100
AcDbEntity
  8
rbg
 62
7
100
AcDbSpline
 70
8
 71
3
 72
8
 73
4
 74
0
 40
0
 40
0
 40
0
 40
0
 40
1
 40
1
 40
1
 40
1
 10
6.012902
 20
5.588361
 30
0.0
 10
6.009166
 20
5.381806
 30
0.0
 10
5.891221
 20
5.289278
 30
0.0
 10
5.787416
 20
5.287723
 30
0.0
  0
SPLINE
  5
10a
100
AcDbEntity
  8
rbg
 62
7
100
AcDbSpline
 70
8
 71
3
 72
8
 73
4
 74
0
 40
0
 40
0
 40
0
 40
0
 40
1
 40
1
 40
1
 40
1
 10
5.787416
 20
5.287723
 30
0.0
 10
5.593750
 20
5.284806
 30
0.0
 10
5.409375
 20
4.958349
 30
0.0
 10
5.411611
 20
4.536100
 30
0.0
  0
SPLINE
  5
10b
100
AcDbEntity
  8
rbg
 62
7
100
AcDbSpline
 70
8
 71
3
 72
8
 73
4
 74
0
 40
0
 40
0
 40
0
 40
0
 40
1
 40
1
 40
1
 40
1
 10
5.411611
 20
4.536100
 30
0.0
 10
5.413084
 20
4.257850
 30
0.0
 10
5.484250
 20
4.266878
 30
0.0
 10
5.787416
 20
4.160295
 30
0.0
  0
SPLINE
  5
10c
100
AcDbEntity
  8
rbg
 62
7
100
AcDbSpline
 70
8
 71
3
 72
8
 73
4
 74
0
 40
0
 40
0
 40
0
 40
0
 40
1
 40
1
 40
1
 40
1
 10
5.787416
 20
4.160295
 30
0.0
 10
6.020429
 20
4.078393
 30
0.0
 10
6.613872
 20
3.834115
 30
0.0
 10
6.614192
 20
3.634171
 30
0.0
  0
SPLINE
  5
10d
100
AcDbEntity
  8
rbg
 62
7
100
AcDbSpline
 70
8
 71
3
 72
8
 73
4
 74
0
 40
0
 40
0
 40
0
 40
0
 40
1
 40
1
 40
1
 40
1
 10
4.284184
 20
9.346421
 30
0.0
 10
4.060143
 20
9.345213
 30
0.0
 10
3.755921
 20
9.233060
 30
0.0
 10
3.682894
 20
9.196102
 30
0.0
  0
SPLINE
  5
10e
100
AcDbEntity
  8
rbg
 62
7
100
AcDbSpline
 70
8
 71
3
 72
8
 73
4
 74
0
 40
0
 40
0
 40
0
 40
0
 40
1
 40
1
 40
1
 40
1
 10
3.682894
 20
9.196102
 30
0.0
 10
3.234978
 20
8.969353
 30
0.0
 10
2.557577
 20
8.685048
 30
0.0
 10
2.555480
 20
7.241912
 30
0.0
  0
SPLINE
  5
10f
100
AcDbEntity
  8
rbg
 62
7
100
AcDbSpline
 70
8
 71
3
 72
8
 73
4
 74
0
 40
0
 40
0
 40
0
 40
0
 40
1
 40
1
 40
1
 40
1
 10
2.555480
 20
7.241912
 30
0.0
 10
2.554855
 20
6.809677
 30
0.0
 10
2.594813
 20
6.643733
 30
0.0
 10
2.480327
 20
6.565456
 30
0.0
  0
SPLINE
  5
110
100
AcDbEntity
  8
rbg
 62
7
100
AcDbSpline
 70
8
 71
3
 72
8
 73
4
 74
0
 40
0
 40
0
 40
0
 40
0
 40
1
 40
1
 40
1
 40
1
 10
2.480327
 20
6.565456
 30
0.0
 10
2.359508
 20
6.482859
 30
0.0
 10
2.404730
 20
6.329873
 30
0.0
 10
2.405161
 20
6.189651
 30
0.0
  0
SPLINE
  5
111
100
AcDbEntity
  8
rbg
 62
7
100
AcDbSpline
 70
8
 71
3
 72
8
 73
4
 74
0
 40
0
 40
0
 40
0
 40
0
 40
1
 40
1
 40
1
 40
1
 10
2.405161
 20
6.189651
 30
0.0
 10
2.406091
 20
5.885694
 30
0.0
 10
2.405952
 20
5.886985
 30
0.0
 10
2.480327
 20
5.813847
 30
0.0
  0
SPLINE
  5
112
100
AcDbEntity
  8
rbg
 62
7
100
AcDbSpline
 70
8
 71
3
 72
8
 73
4
 74
0
 40
0
 40
0
 40
0
 40
0
 40
1
 40
1
 40
1
 40
1
 10
2.480327
 20
5.813847
 30
0.0
 10
2.556188
 20
5.739236
 30
0.0
 10
2.552758
 20
5.738944
 30
0.0
 10
2.555480
 20
5.588361
 30
0.0
  0
SPLINE
  5
113
100
AcDbEntity
  8
rbg
 62
7
100
AcDbSpline
 70
8
 71
3
 72
8
 73
4
 74
0
 40
0
 40
0
 40
0
 40
0
 40
1
 40
1
 40
1
 40
1
 10
2.555480
 20
5.588361
 30
0.0
 10
2.559216
 20
5.381806
 30
0.0
 10
2.677160
 20
5.289278
 30
0.0
 10
2.780965
 20
5.287723
 30
0.0
  0
SPLINE
  5
114
100
AcDbEntity
  8
rbg
 62
7
100
AcDbSpline
 70
8
 71
3
 72
8
 73
4
 74
0
 40
0
 40
0
 40
0
 40
0
 40
1
 40
1
 40
1
 40
1
 10
2.780965
 20
5.287723
 30
0.0
 10
2.974631
 20
5.284806
 30
0.0
 10
3.159006
 20
4.958349
 30
0.0
 10
3.156770
 20
4.536100
 30
0.0
  0
SPLINE
  5
115
100
AcDbEntity
  8
rbg
 62
7
100
AcDbSpline
 70
8
 71
3
 72
8
 73
4
 74
0
 40
0
 40
0
 40
0
 40
0
 40
1
 40
1
 40
1
 40
1
 10
3.156770
 20
4.536100
 30
0.0
 10
3.155298
 20
4.257850
 30
0.0
 10
3.084131
 20
4.266878
 30
0.0
 10
2.780965
 20
4.160295
 30
0.0
  0
SPLINE
  5
116
100
AcDbEntity
  8
rbg
 62
7
100
AcDbSpline
 70
8
 71
3
 72
8
 73
4
 74
0
 40
0
 40
0
 40
0
 40
0
 40
1
 40
1
 40
1
 40
1
 10
2.780965
 20
4.160295
 30
0.0
 10
2.547952
 20
4.078393
 30
0.0
 10
1.954509
 20
3.834115
 30
0.0
 10
1.954190
 20
3.634171
 30
0.0
  0
ENDSEC
  0
SECTION
  2
OBJECTS
  0
DICTIONARY
  5
C
330
0
100
AcDbDictionary
  3
ACAD_GROUP
350
D
  3
ACAD_MLINESTYLE
350
17
  0
DICTIONARY
  5
D
330
C
100
AcDbDictionary
  0
DICTIONARY
  5
1A
330
C
100
AcDbDictionary
  0
DICTIONARY
  5
17
330
C
100
AcDbDictionary
  3
STANDARD
350
18
  0
DICTIONARY
  5
19
330
C
100
AcDbDictionary
  0
ENDSEC
  0
EOF
